  0
SECTION
  2
HEADER
  9
$ACADVER
  1
AC1015
  9
$ACADMAINTVER
 70
     6
  9
$DWGCODEPAGE
  3
ANSI_1254
  9
$INSBASE
 10
0.0
 20
0.0
 30
0.0
  9
$EXTMIN
 10
0.0
 20
0.0
 30
0.0
  9
$EXTMAX
 10
279.4
 20
215.9
 30
0.0
  9
$LIMMIN
 10
0.0
 20
0.0
  9
$LIMMAX
 10
279.4
 20
215.9
  9
$ORTHOMODE
 70
     0
  9
$REGENMODE
 70
     1
  9
$FILLMODE
 70
     1
  9
$QTEXTMODE
 70
     0
  9
$MIRRTEXT
 70
     1
  9
$LTSCALE
 40
1.0
  9
$ATTMODE
 70
     1
  9
$TEXTSIZE
 40
3.5
  9
$TRACEWID
 40
1.0
  9
$TEXTSTYLE
  7
Standard
  9
$CLAYER
  8
0
  9
$CELTYPE
  6
ByLayer
  9
$CECOLOR
 62
   256
  9
$CELTSCALE
 40
1.0
  9
$DISPSILH
 70
     0
  9
$DIMSCALE
 40
1.0
  9
$DIMASZ
 40
3.5
  9
$DIMEXO
 40
1.0
  9
$DIMDLI
 40
3.75
  9
$DIMRND
 40
0.0
  9
$DIMDLE
 40
0.0
  9
$DIMEXE
 40
1.0
  9
$DIMTP
 40
0.0
  9
$DIMTM
 40
0.0
  9
$DIMTXT
 40
3.5
  9
$DIMCEN
 40
2.5
  9
$DIMTSZ
 40
0.0
  9
$DIMTOL
 70
     0
  9
$DIMLIM
 70
     0
  9
$DIMTIH
 70
     1
  9
$DIMTOH
 70
     1
  9
$DIMSE1
 70
     0
  9
$DIMSE2
 70
     0
  9
$DIMTAD
 70
     1
  9
$DIMZIN
 70
     0
  9
$DIMBLK
  1

  9
$DIMASO
 70
     1
  9
$DIMSHO
 70
     1
  9
$DIMPOST
  1

  9
$DIMAPOST
  1

  9
$DIMALT
 70
     0
  9
$DIMALTD
 70
     3
  9
$DIMALTF
 40
0.0393700787
  9
$DIMLFAC
 40
1.0
  9
$DIMTOFL
 70
     1
  9
$DIMTVP
 40
0.0
  9
$DIMTIX
 70
     0
  9
$DIMSOXD
 70
     0
  9
$DIMSAH
 70
     0
  9
$DIMBLK1
  1

  9
$DIMBLK2
  1

  9
$DIMSTYLE
  2
ISO-25
  9
$DIMCLRD
 70
     0
  9
$DIMCLRE
 70
     0
  9
$DIMCLRT
 70
     0
  9
$DIMTFAC
 40
1.0
  9
$DIMGAP
 40
1.524
  9
$DIMJUST
 70
     0
  9
$DIMSD1
 70
     0
  9
$DIMSD2
 70
     0
  9
$DIMTOLJ
 70
     0
  9
$DIMTZIN
 70
     0
  9
$DIMALTZ
 70
     0
  9
$DIMALTTZ
 70
     0
  9
$DIMUPT
 70
     0
  9
$DIMDEC
 70
     2
  9
$DIMTDEC
 70
     2
  9
$DIMALTU
 70
     2
  9
$DIMALTTD
 70
     3
  9
$DIMTXSTY
  7
Standard
  9
$DIMAUNIT
 70
     0
  9
$DIMADEC
 70
     2
  9
$DIMALTRND
 40
0.0
  9
$DIMAZIN
 70
     0
  9
$DIMDSEP
 70
    44
  9
$DIMATFIT
 70
     3
  9
$DIMFRAC
 70
     0
  9
$DIMLDRBLK
  1

  9
$DIMLUNIT
 70
     2
  9
$DIMLWD
 70
    -2
  9
$DIMLWE
 70
    -2
  9
$DIMTMOVE
 70
     0
  9
$LUNITS
 70
     2
  9
$LUPREC
 70
     2
  9
$SKETCHINC
 40
1.0
  9
$FILLETRAD
 40
10.0
  9
$AUNITS
 70
     0
  9
$AUPREC
 70
     2
  9
$MENU
  1
.
  9
$ELEVATION
 40
0.0
  9
$PELEVATION
 40
0.0
  9
$THICKNESS
 40
0.0
  9
$LIMCHECK
 70
     0
  9
$CHAMFERA
 40
0.0
  9
$CHAMFERB
 40
0.0
  9
$CHAMFERC
 40
0.0
  9
$CHAMFERD
 40
0.0
  9
$SKPOLY
 70
     0
  9
$TDCREATE
 40
2459935.699410012
  9
$TDUCREATE
 40
2459935.574410012
  9
$TDUPDATE
 40
2459935.699410185
  9
$TDUUPDATE
 40
2459935.574410185
  9
$TDINDWG
 40
0.0000000116
  9
$TDUSRTIMER
 40
0.0000000116
  9
$USRTIMER
 70
     1
  9
$ANGBASE
 50
0.0
  9
$ANGDIR
 70
     0
  9
$PDMODE
 70
     0
  9
$PDSIZE
 40
-1.0
  9
$PLINEWID
 40
0.0
  9
$SPLFRAME
 70
     0
  9
$SPLINETYPE
 70
     6
  9
$SPLINESEGS
 70
     8
  9
$HANDSEED
  5
ED
  9
$SURFTAB1
 70
     6
  9
$SURFTAB2
 70
     6
  9
$SURFTYPE
 70
     6
  9
$SURFU
 70
     6
  9
$SURFV
 70
     6
  9
$UCSBASE
  2

  9
$UCSNAME
  2

  9
$UCSORG
 10
0.0
 20
0.0
 30
0.0
  9
$UCSXDIR
 10
1.0
 20
0.0
 30
0.0
  9
$UCSYDIR
 10
0.0
 20
1.0
 30
0.0
  9
$UCSORTHOREF
  2

  9
$UCSORTHOVIEW
 70
     0
  9
$UCSORGTOP
 10
0.0
 20
0.0
 30
0.0
  9
$UCSORGBOTTOM
 10
0.0
 20
0.0
 30
0.0
  9
$UCSORGLEFT
 10
0.0
 20
0.0
 30
0.0
  9
$UCSORGRIGHT
 10
0.0
 20
0.0
 30
0.0
  9
$UCSORGFRONT
 10
0.0
 20
0.0
 30
0.0
  9
$UCSORGBACK
 10
0.0
 20
0.0
 30
0.0
  9
$PUCSBASE
  2

  9
$PUCSNAME
  2

  9
$PUCSORG
 10
0.0
 20
0.0
 30
0.0
  9
$PUCSXDIR
 10
1.0
 20
0.0
 30
0.0
  9
$PUCSYDIR
 10
0.0
 20
1.0
 30
0.0
  9
$PUCSORTHOREF
  2

  9
$PUCSORTHOVIEW
 70
     0
  9
$PUCSORGTOP
 10
0.0
 20
0.0
 30
0.0
  9
$PUCSORGBOTTOM
 10
0.0
 20
0.0
 30
0.0
  9
$PUCSORGLEFT
 10
0.0
 20
0.0
 30
0.0
  9
$PUCSORGRIGHT
 10
0.0
 20
0.0
 30
0.0
  9
$PUCSORGFRONT
 10
0.0
 20
0.0
 30
0.0
  9
$PUCSORGBACK
 10
0.0
 20
0.0
 30
0.0
  9
$USERI1
 70
     0
  9
$USERI2
 70
     0
  9
$USERI3
 70
     0
  9
$USERI4
 70
     0
  9
$USERI5
 70
     0
  9
$USERR1
 40
0.0
  9
$USERR2
 40
0.0
  9
$USERR3
 40
0.0
  9
$USERR4
 40
0.0
  9
$USERR5
 40
0.0
  9
$WORLDVIEW
 70
     1
  9
$SHADEDGE
 70
     3
  9
$SHADEDIF
 70
    70
  9
$TILEMODE
 70
     1
  9
$MAXACTVP
 70
    64
  9
$PINSBASE
 10
0.0
 20
0.0
 30
0.0
  9
$PLIMCHECK
 70
     0
  9
$PEXTMIN
 10
1.0000000000E+20
 20
1.0000000000E+20
 30
1.0000000000E+20
  9
$PEXTMAX
 10
-1.0000000000E+20
 20
-1.0000000000E+20
 30
-1.0000000000E+20
  9
$PLIMMIN
 10
0.0
 20
0.0
  9
$PLIMMAX
 10
420.0
 20
297.0
  9
$UNITMODE
 70
     0
  9
$VISRETAIN
 70
     1
  9
$PLINEGEN
 70
     0
  9
$PSLTSCALE
 70
     1
  9
$TREEDEPTH
 70
  3020
  9
$CMLSTYLE
  2
Standard
  9
$CMLJUST
 70
     0
  9
$CMLSCALE
 40
20.0
  9
$PROXYGRAPHICS
 70
     1
  9
$MEASUREMENT
 70
     1
  9
$CELWEIGHT
370
    -1
  9
$ENDCAPS
280
     0
  9
$JOINSTYLE
280
     0
  9
$LWDISPLAY
290
     1
  9
$INSUNITS
 70
     4
  9
$HYPERLINKBASE
  1

  9
$STYLESHEET
  1

  9
$XEDIT
290
     1
  9
$CEPSNTYPE
380
     0
  9
$PSTYLEMODE
290
     1
  9
$FINGERPRINTGUID
  2
{2d2dde19-82dd-4b44-b18d-289d8567139d}
  9
$VERSIONGUID
  2
{FAEB1C32-E019-11D5-929B-00C0DF256EC4}
  9
$EXTNAMES
290
     1
  9
$PSVPSCALE
 40
0.0
  9
$OLESTARTUP
290
     0
  0
ENDSEC
  0
SECTION
  2
CLASSES
  0
CLASS
  1
ACDBDICTIONARYWDFLT
  2
AcDbDictionaryWithDefault
  3
ObjectDBX Classes
 90
        0
280
     0
281
     0
  0
CLASS
  1
VISUALSTYLE
  2
AcDbVisualStyle
  3
ObjectDBX Classes
 90
     4095
280
     0
281
     0
  0
CLASS
  1
MATERIAL
  2
AcDbMaterial
  3
ObjectDBX Classes
 90
     1153
280
     0
281
     0
  0
CLASS
  1
SCALE
  2
AcDbScale
  3
ObjectDBX Classes
 90
     1153
280
     0
281
     0
  0
CLASS
  1
TABLESTYLE
  2
AcDbTableStyle
  3
ObjectDBX Classes
 90
     4095
280
     0
281
     0
  0
CLASS
  1
MLEADERSTYLE
  2
AcDbMLeaderStyle
  3
ACDB_MLEADERSTYLE_CLASS
 90
     4095
280
     0
281
     0
  0
CLASS
  1
SUN
  2
AcDbSun
  3
SCENEOE
 90
     1153
280
     0
281
     0
  0
CLASS
  1
ACDBPLACEHOLDER
  2
AcDbPlaceHolder
  3
ObjectDBX Classes
 90
        0
280
     0
281
     0
  0
CLASS
  1
LAYOUT
  2
AcDbLayout
  3
ObjectDBX Classes
 90
        0
280
     0
281
     0
  0
ENDSEC
  0
SECTION
  2
TABLES
  0
TABLE
  2
VPORT
  5
8
330
0
100
AcDbSymbolTable
 70
     1
  0
VPORT
  5
29
330
8
100
AcDbSymbolTableRecord
100
AcDbViewportTableRecord
  2
*Active
 70
     0
 10
0.0
 20
0.0
 11
1.0
 21
1.0
 12
139.7
 22
107.95
 13
0.0
 23
0.0
 14
10.0
 24
10.0
 15
10.0
 25
10.0
 16
0.0
 26
0.0
 36
1.0
 17
0.0
 27
0.0
 37
0.0
 40
215.9
 41
1.2941176471
 42
50.0
 43
0.0
 44
0.0
 50
0.0
 51
0.0
 71
     0
 72
  2000
 73
     1
 74
     3
 75
     0
 76
     0
 77
     0
 78
     0
281
     0
 65
     1
110
0.0
120
0.0
130
0.0
111
1.0
121
0.0
131
0.0
112
0.0
122
1.0
132
0.0
 79
     0
146
0.0
  0
ENDTAB
  0
TABLE
  2
LTYPE
  5
5
330
0
100
AcDbSymbolTable
 70
     6
  0
LTYPE
  5
14
330
5
100
AcDbSymbolTableRecord
100
AcDbLinetypeTableRecord
  2
ByBlock
 70
     0
  3

 72
    65
 73
     0
 40
0.0
  0
LTYPE
  5
15
330
5
100
AcDbSymbolTableRecord
100
AcDbLinetypeTableRecord
  2
ByLayer
 70
     0
  3

 72
    65
 73
     0
 40
0.0
  0
LTYPE
  5
16
330
5
100
AcDbSymbolTableRecord
100
AcDbLinetypeTableRecord
  2
Continuous
 70
     0
  3
Solid line
 72
    65
 73
     0
 40
0.0
  0
LTYPE
  5
6E
330
5
100
AcDbSymbolTableRecord
100
AcDbLinetypeTableRecord
  2
HIDDEN
 70
     0
  3
Hidden __ __ __ __ __ __ __ __ __ __ __ __ __ __
 72
    65
 73
     2
 40
1.905
 49
1.27
 74
     0
 49
-0.635
 74
     0
  0
LTYPE
  5
6F
330
5
100
AcDbSymbolTableRecord
100
AcDbLinetypeTableRecord
  2
PHANTOM
 70
     0
  3
Phantom ______  __  __  ______  __  __  ______
 72
    65
 73
     6
 40
12.7
 49
6.35
 74
     0
 49
-1.27
 74
     0
 49
1.27
 74
     0
 49
-1.27
 74
     0
 49
1.27
 74
     0
 49
-1.27
 74
     0
  0
LTYPE
  5
70
330
5
100
AcDbSymbolTableRecord
100
AcDbLinetypeTableRecord
  2
CENTER
 70
     0
  3
Center ____ _ ____ _ ____ _ ____ _ ____ _ ____
 72
    65
 73
     4
 40
10.16
 49
6.35
 74
     0
 49
-1.27
 74
     0
 49
1.27
 74
     0
 49
-1.27
 74
     0
  0
LTYPE
  5
71
330
5
100
AcDbSymbolTableRecord
100
AcDbLinetypeTableRecord
  2
CENTERX2
 70
     0
  3
Center (2x) ________  __  ________  __  _____
 72
    65
 73
     4
 40
20.32
 49
12.7
 74
     0
 49
-2.54
 74
     0
 49
2.54
 74
     0
 49
-2.54
 74
     0
  0
LTYPE
  5
72
330
5
100
AcDbSymbolTableRecord
100
AcDbLinetypeTableRecord
  2
DOT2
 70
     0
  3
Dot (.5x) ........................................
 72
    65
 73
     2
 40
0.635
 49
0.0
 74
     0
 49
-0.635
 74
     0
  0
ENDTAB
  0
TABLE
  2
LAYER
  5
2
330
0
100
AcDbSymbolTable
 70
    17
  0
LAYER
  5
10
330
2
100
AcDbSymbolTableRecord
100
AcDbLayerTableRecord
  2
0
 70
     0
 62
     7
  6
Continuous
370
    -3
390
F
  0
LAYER
  5
73
330
2
100
AcDbSymbolTableRecord
100
AcDbLayerTableRecord
  2
FORMAT
 70
     0
 62
     7
  6
Continuous
370
    -3
390
F
  0
LAYER
  5
74
330
2
100
AcDbSymbolTableRecord
100
AcDbLayerTableRecord
  2
YARDIMCI_GEOMETRI
 70
     0
 62
    -6
  6
Continuous
290
     0
370
    -3
390
F
  0
LAYER
  5
75
330
2
100
AcDbSymbolTableRecord
100
AcDbLayerTableRecord
  2
SAYFA_CERCEVESI
 70
     0
 62
     7
  6
Continuous
370
    25
390
F
  0
LAYER
  5
76
330
2
100
AcDbSymbolTableRecord
100
AcDbLayerTableRecord
  2
ANTET
 70
     0
 62
     7
  6
Continuous
370
    -3
390
F
  0
LAYER
  5
77
330
2
100
AcDbSymbolTableRecord
100
AcDbLayerTableRecord
  2
OLCU
 70
     0
 62
   150
  6
Continuous
370
    -3
390
F
  0
LAYER
  5
78
330
2
100
AcDbSymbolTableRecord
100
AcDbLayerTableRecord
  2
METIN
 70
     0
 62
    96
  6
Continuous
370
    -3
390
F
  0
LAYER
  5
79
330
2
100
AcDbSymbolTableRecord
100
AcDbLayerTableRecord
  2
BALON
 70
     0
 62
     5
  6
Continuous
370
    -3
390
F
  0
LAYER
  5
7A
330
2
100
AcDbSymbolTableRecord
100
AcDbLayerTableRecord
  2
VURGU
 70
     0
 62
     7
  6
Continuous
370
    -3
390
F
  0
LAYER
  5
7B
330
2
100
AcDbSymbolTableRecord
100
AcDbLayerTableRecord
  2
SILIK
 70
     0
 62
     7
  6
Continuous
370
    -3
390
F
  0
LAYER
  5
7C
330
2
100
AcDbSymbolTableRecord
100
AcDbLayerTableRecord
  2
MODEL
 70
     0
 62
     7
  6
Continuous
370
    -3
390
F
  0
LAYER
  5
7D
330
2
100
AcDbSymbolTableRecord
100
AcDbLayerTableRecord
  2
DETAYLANDıRMA
 70
     0
 62
   190
  6
Continuous
370
    -3
390
F
  0
LAYER
  5
7E
330
2
100
AcDbSymbolTableRecord
100
AcDbLayerTableRecord
  2
TOLERANS
 70
     0
 62
   230
  6
Continuous
370
    -3
390
F
  0
LAYER
  5
7F
330
2
100
AcDbSymbolTableRecord
100
AcDbLayerTableRecord
  2
MERKEZ_CIZGILERI
 70
     0
 62
    30
  6
Continuous
370
    -3
390
F
  0
LAYER
  5
80
330
2
100
AcDbSymbolTableRecord
100
AcDbLayerTableRecord
  2
KESIT-DETAY_CIZGILERI
 70
     0
 62
     7
  6
Continuous
370
    -3
390
F
  0
LAYER
  5
81
330
2
100
AcDbSymbolTableRecord
100
AcDbLayerTableRecord
  2
\U+041E\U+0421\U+0415\U+0412\U+042B\U+0415
 70
     0
 62
     7
  6
Continuous
370
    -3
390
F
  0
LAYER
  5
82
330
2
100
AcDbSymbolTableRecord
100
AcDbLayerTableRecord
  2
\U+0412\U+041E\U+0414\U+042F\U+041D\U+042B\U+0415_\U+0417\U+041D\U+0410\U+041A\U+0418
 70
     0
 62
    11
  6
Continuous
370
    -3
390
F
  0
ENDTAB
  0
TABLE
  2
STYLE
  5
3
330
0
100
AcDbSymbolTable
 70
     1
  0
STYLE
  5
11
330
3
100
AcDbSymbolTableRecord
100
AcDbTextStyleTableRecord
  2
Standard
 70
     0
 40
0.0
 41
1.0
 50
0.0
 71
     0
 42
3.5
  3
txt
  4

  0
ENDTAB
  0
TABLE
  2
VIEW
  5
6
330
0
100
AcDbSymbolTable
 70
     0
  0
ENDTAB
  0
TABLE
  2
UCS
  5
7
330
0
100
AcDbSymbolTable
 70
     0
  0
ENDTAB
  0
TABLE
  2
APPID
  5
9
330
0
100
AcDbSymbolTable
 70
     1
  0
APPID
  5
12
330
9
100
AcDbSymbolTableRecord
100
AcDbRegAppTableRecord
  2
ACAD
 70
     0
  0
ENDTAB
  0
TABLE
  2
DIMSTYLE
  5
A
330
0
100
AcDbSymbolTable
 70
     1
100
AcDbDimStyleTable
  0
DIMSTYLE
105
27
330
A
100
AcDbSymbolTableRecord
100
AcDbDimStyleTableRecord
  2
ISO-25
 70
     0
 41
2.5
 42
0.625
 43
3.75
 44
1.25
 73
     0
 74
     0
 77
     1
 78
     8
140
2.5
141
2.5
143
0.0393700787
147
0.625
171
     3
172
     1
178
     0
271
     2
272
     2
274
     3
278
    44
283
     0
284
     8
340
11
  0
ENDTAB
  0
TABLE
  2
BLOCK_RECORD
  5
1
330
0
100
AcDbSymbolTable
 70
     5
  0
BLOCK_RECORD
  5
1F
330
1
100
AcDbSymbolTableRecord
100
AcDbBlockTableRecord
  2
*Model_Space
340
22
  0
BLOCK_RECORD
  5
1B
330
1
100
AcDbSymbolTableRecord
100
AcDbBlockTableRecord
  2
*Paper_Space
340
1E
  0
BLOCK_RECORD
  5
23
330
1
100
AcDbSymbolTableRecord
100
AcDbBlockTableRecord
  2
*Paper_Space0
340
26
  0
BLOCK_RECORD
  5
97
330
1
100
AcDbSymbolTableRecord
100
AcDbBlockTableRecord
  2
SW_CENTERMARKSYMBOL_0
340
0
102
{BLKREFS
331
A2
102
}
  0
BLOCK_RECORD
  5
AC
330
1
100
AcDbSymbolTableRecord
100
AcDbBlockTableRecord
  2
SW_CENTERMARKSYMBOL_1
340
0
102
{BLKREFS
331
B7
102
}
  0
BLOCK_RECORD
  5
BF
330
1
100
AcDbSymbolTableRecord
100
AcDbBlockTableRecord
  2
SW_CENTERMARKSYMBOL_2
340
0
102
{BLKREFS
331
CA
102
}
  0
BLOCK_RECORD
  5
D2
330
1
100
AcDbSymbolTableRecord
100
AcDbBlockTableRecord
  2
SW_CENTERMARKSYMBOL_3
340
0
102
{BLKREFS
331
DD
102
}
  0
ENDTAB
  0
ENDSEC
  0
SECTION
  2
BLOCKS
  0
BLOCK
  5
20
330
1F
100
AcDbEntity
  8
0
100
AcDbBlockBegin
  2
*Model_Space
 70
     0
 10
0.0
 20
0.0
 30
0.0
  3
*Model_Space
  1

  0
ENDBLK
  5
21
330
1F
100
AcDbEntity
  8
0
100
AcDbBlockEnd
  0
BLOCK
  5
1C
330
1B
100
AcDbEntity
 67
     1
  8
0
100
AcDbBlockBegin
  2
*Paper_Space
 70
     0
 10
0.0
 20
0.0
 30
0.0
  3
*Paper_Space
  1

  0
ENDBLK
  5
1D
330
1B
100
AcDbEntity
 67
     1
  8
0
100
AcDbBlockEnd
  0
BLOCK
  5
24
330
23
100
AcDbEntity
  8
0
100
AcDbBlockBegin
  2
*Paper_Space0
 70
     0
 10
0.0
 20
0.0
 30
0.0
  3
*Paper_Space0
  1

  0
ENDBLK
  5
25
330
23
100
AcDbEntity
  8
0
100
AcDbBlockEnd
  0
BLOCK
  5
98
330
97
100
AcDbEntity
  8
0
100
AcDbBlockBegin
  2
SW_CENTERMARKSYMBOL_0
 70
     0
 10
0.0
 20
0.0
 30
0.0
  3
SW_CENTERMARKSYMBOL_0
  1

  0
LINE
  5
9A
330
97
100
AcDbEntity
  8
FORMAT
 62
     0
100
AcDbLine
 10
0.0
 20
0.0
 30
0.0
 11
0.0
 21
2.5
 31
0.0
  0
LINE
  5
9B
330
97
100
AcDbEntity
  8
FORMAT
 62
     0
100
AcDbLine
 10
0.0
 20
0.0
 30
0.0
 11
-2.5
 21
0.0
 31
0.0
  0
LINE
  5
9C
330
97
100
AcDbEntity
  8
FORMAT
 62
     0
100
AcDbLine
 10
0.0
 20
0.0
 30
0.0
 11
0.0
 21
-2.5
 31
0.0
  0
LINE
  5
9D
330
97
100
AcDbEntity
  8
FORMAT
 62
     0
100
AcDbLine
 10
0.0
 20
0.0
 30
0.0
 11
2.5
 21
0.0
 31
0.0
  0
LINE
  5
9E
330
97
100
AcDbEntity
  8
FORMAT
 62
     0
100
AcDbLine
 10
0.0
 20
5.0
 30
0.0
 11
0.0
 21
115.0
 31
0.0
  0
LINE
  5
9F
330
97
100
AcDbEntity
  8
FORMAT
 62
     0
100
AcDbLine
 10
-5.0
 20
0.0
 30
0.0
 11
-115.0
 21
0.0
 31
0.0
  0
LINE
  5
A0
330
97
100
AcDbEntity
  8
FORMAT
 62
     0
100
AcDbLine
 10
0.0
 20
-5.0
 30
0.0
 11
0.0
 21
-115.0
 31
0.0
  0
LINE
  5
A1
330
97
100
AcDbEntity
  8
FORMAT
 62
     0
100
AcDbLine
 10
5.0
 20
0.0
 30
0.0
 11
115.0
 21
0.0
 31
0.0
  0
ENDBLK
  5
99
330
97
100
AcDbEntity
  8
0
100
AcDbBlockEnd
  0
BLOCK
  5
AD
330
AC
100
AcDbEntity
  8
0
100
AcDbBlockBegin
  2
SW_CENTERMARKSYMBOL_1
 70
     0
 10
0.0
 20
0.0
 30
0.0
  3
SW_CENTERMARKSYMBOL_1
  1

  0
LINE
  5
AF
330
AC
100
AcDbEntity
  8
FORMAT
 62
     0
100
AcDbLine
 10
0.0
 20
0.0
 30
0.0
 11
0.0
 21
2.5
 31
0.0
  0
LINE
  5
B0
330
AC
100
AcDbEntity
  8
FORMAT
 62
     0
100
AcDbLine
 10
0.0
 20
0.0
 30
0.0
 11
-2.5
 21
0.0
 31
0.0
  0
LINE
  5
B1
330
AC
100
AcDbEntity
  8
FORMAT
 62
     0
100
AcDbLine
 10
0.0
 20
0.0
 30
0.0
 11
0.0
 21
-2.5
 31
0.0
  0
LINE
  5
B2
330
AC
100
AcDbEntity
  8
FORMAT
 62
     0
100
AcDbLine
 10
0.0
 20
0.0
 30
0.0
 11
2.5
 21
0.0
 31
0.0
  0
LINE
  5
B3
330
AC
100
AcDbEntity
  8
FORMAT
 62
     0
100
AcDbLine
 10
0.0
 20
5.0
 30
0.0
 11
0.0
 21
115.0
 31
0.0
  0
LINE
  5
B4
330
AC
100
AcDbEntity
  8
FORMAT
 62
     0
100
AcDbLine
 10
-5.0
 20
0.0
 30
0.0
 11
-115.0
 21
0.0
 31
0.0
  0
LINE
  5
B5
330
AC
100
AcDbEntity
  8
FORMAT
 62
     0
100
AcDbLine
 10
0.0
 20
-5.0
 30
0.0
 11
0.0
 21
-115.0
 31
0.0
  0
LINE
  5
B6
330
AC
100
AcDbEntity
  8
FORMAT
 62
     0
100
AcDbLine
 10
5.0
 20
0.0
 30
0.0
 11
115.0
 21
0.0
 31
0.0
  0
ENDBLK
  5
AE
330
AC
100
AcDbEntity
  8
0
100
AcDbBlockEnd
  0
BLOCK
  5
C0
330
BF
100
AcDbEntity
  8
0
100
AcDbBlockBegin
  2
SW_CENTERMARKSYMBOL_2
 70
     0
 10
0.0
 20
0.0
 30
0.0
  3
SW_CENTERMARKSYMBOL_2
  1

  0
LINE
  5
C2
330
BF
100
AcDbEntity
  8
FORMAT
 62
     0
100
AcDbLine
 10
0.0
 20
0.0
 30
0.0
 11
0.0
 21
2.5
 31
0.0
  0
LINE
  5
C3
330
BF
100
AcDbEntity
  8
FORMAT
 62
     0
100
AcDbLine
 10
0.0
 20
0.0
 30
0.0
 11
-2.5
 21
0.0
 31
0.0
  0
LINE
  5
C4
330
BF
100
AcDbEntity
  8
FORMAT
 62
     0
100
AcDbLine
 10
0.0
 20
0.0
 30
0.0
 11
0.0
 21
-2.5
 31
0.0
  0
LINE
  5
C5
330
BF
100
AcDbEntity
  8
FORMAT
 62
     0
100
AcDbLine
 10
0.0
 20
0.0
 30
0.0
 11
2.5
 21
0.0
 31
0.0
  0
LINE
  5
C6
330
BF
100
AcDbEntity
  8
FORMAT
 62
     0
100
AcDbLine
 10
0.0
 20
5.0
 30
0.0
 11
0.0
 21
115.0
 31
0.0
  0
LINE
  5
C7
330
BF
100
AcDbEntity
  8
FORMAT
 62
     0
100
AcDbLine
 10
-5.0
 20
0.0
 30
0.0
 11
-115.0
 21
0.0
 31
0.0
  0
LINE
  5
C8
330
BF
100
AcDbEntity
  8
FORMAT
 62
     0
100
AcDbLine
 10
0.0
 20
-5.0
 30
0.0
 11
0.0
 21
-115.0
 31
0.0
  0
LINE
  5
C9
330
BF
100
AcDbEntity
  8
FORMAT
 62
     0
100
AcDbLine
 10
5.0
 20
0.0
 30
0.0
 11
115.0
 21
0.0
 31
0.0
  0
ENDBLK
  5
C1
330
BF
100
AcDbEntity
  8
0
100
AcDbBlockEnd
  0
BLOCK
  5
D3
330
D2
100
AcDbEntity
  8
0
100
AcDbBlockBegin
  2
SW_CENTERMARKSYMBOL_3
 70
     0
 10
0.0
 20
0.0
 30
0.0
  3
SW_CENTERMARKSYMBOL_3
  1

  0
LINE
  5
D5
330
D2
100
AcDbEntity
  8
FORMAT
 62
     0
100
AcDbLine
 10
0.0
 20
0.0
 30
0.0
 11
0.0
 21
2.5
 31
0.0
  0
LINE
  5
D6
330
D2
100
AcDbEntity
  8
FORMAT
 62
     0
100
AcDbLine
 10
0.0
 20
0.0
 30
0.0
 11
-2.5
 21
0.0
 31
0.0
  0
LINE
  5
D7
330
D2
100
AcDbEntity
  8
FORMAT
 62
     0
100
AcDbLine
 10
0.0
 20
0.0
 30
0.0
 11
0.0
 21
-2.5
 31
0.0
  0
LINE
  5
D8
330
D2
100
AcDbEntity
  8
FORMAT
 62
     0
100
AcDbLine
 10
0.0
 20
0.0
 30
0.0
 11
2.5
 21
0.0
 31
0.0
  0
LINE
  5
D9
330
D2
100
AcDbEntity
  8
FORMAT
 62
     0
100
AcDbLine
 10
0.0
 20
5.0
 30
0.0
 11
0.0
 21
115.0
 31
0.0
  0
LINE
  5
DA
330
D2
100
AcDbEntity
  8
FORMAT
 62
     0
100
AcDbLine
 10
-5.0
 20
0.0
 30
0.0
 11
-115.0
 21
0.0
 31
0.0
  0
LINE
  5
DB
330
D2
100
AcDbEntity
  8
FORMAT
 62
     0
100
AcDbLine
 10
0.0
 20
-5.0
 30
0.0
 11
0.0
 21
-115.0
 31
0.0
  0
LINE
  5
DC
330
D2
100
AcDbEntity
  8
FORMAT
 62
     0
100
AcDbLine
 10
5.0
 20
0.0
 30
0.0
 11
115.0
 21
0.0
 31
0.0
  0
ENDBLK
  5
D4
330
D2
100
AcDbEntity
  8
0
100
AcDbBlockEnd
  0
ENDSEC
  0
SECTION
  2
ENTITIES
  0
LINE
  5
83
330
1F
100
AcDbEntity
  8
0
  6
Continuous
 62
     7
370
    25
100
AcDbLine
 10
-15.475620487
 20
61.6550414264
 30
0.0
 11
-15.475620487
 21
-89.8449585736
 31
0.0
  0
LINE
  5
84
330
1F
100
AcDbEntity
  8
0
  6
Continuous
 62
     7
370
    25
100
AcDbLine
 10
209.524379513
 20
-89.8449585736
 30
0.0
 11
209.524379513
 21
61.6550414264
 31
0.0
  0
ARC
  5
85
330
1F
100
AcDbEntity
  8
0
  6
Continuous
 62
     7
370
    25
100
AcDbCircle
 10
209.524379513
 20
61.6550414264
 30
0.0
 40
225.0
100
AcDbArc
 50
90.0
 51
180.0
  0
LINE
  5
86
330
1F
100
AcDbEntity
  8
0
  6
Continuous
 62
     7
370
    25
100
AcDbLine
 10
361.024379513
 20
286.6550414264
 30
0.0
 11
209.524379513
 21
286.6550414264
 31
0.0
  0
LINE
  5
87
330
1F
100
AcDbEntity
  8
0
  6
Continuous
 62
     7
370
    25
100
AcDbLine
 10
209.524379513
 20
61.6550414264
 30
0.0
 11
361.024379513
 21
61.6550414264
 31
0.0
  0
LINE
  5
88
330
1F
100
AcDbEntity
  8
0
  6
Continuous
 62
     7
370
    25
100
AcDbLine
 10
97.024379513
 20
-89.8449585736
 30
0.0
 11
209.524379513
 21
-89.8449585736
 31
0.0
  0
LINE
  5
89
330
1F
100
AcDbEntity
  8
0
  6
Continuous
 62
     7
370
    25
100
AcDbLine
 10
-15.475620487
 20
-89.8449585736
 30
0.0
 11
97.024379513
 21
-89.8449585736
 31
0.0
  0
LINE
  5
8A
330
1F
100
AcDbEntity
  8
0
  6
Continuous
 62
     7
370
    25
100
AcDbLine
 10
361.024379513
 20
174.1550414264
 30
0.0
 11
361.024379513
 21
61.6550414264
 31
0.0
  0
LINE
  5
8B
330
1F
100
AcDbEntity
  8
0
  6
Continuous
 62
     7
370
    25
100
AcDbLine
 10
361.024379513
 20
286.6550414264
 30
0.0
 11
361.024379513
 21
174.1550414264
 31
0.0
  0
LINE
  5
8C
330
1F
100
AcDbEntity
  8
0
  6
Continuous
 62
     1
370
    25
100
AcDbLine
 10
-15.475620487
 20
61.6550414264
 30
0.0
 11
209.524379513
 21
61.6550414264
 31
0.0
  0
LINE
  5
8D
330
1F
100
AcDbEntity
  8
0
  6
Continuous
 62
     1
370
    25
100
AcDbLine
 10
209.524379513
 20
286.6550414264
 30
0.0
 11
209.524379513
 21
61.6550414264
 31
0.0
  0
LINE
  5
8E
330
1F
100
AcDbEntity
  8
0
  6
Continuous
 62
     7
370
    25
100
AcDbLine
 10
-369.5457021057
 20
174.1550414264
 30
0.0
 11
-369.5457021057
 21
61.6550414264
 31
0.0
  0
LINE
  5
8F
330
1F
100
AcDbEntity
  8
0
  6
Continuous
 62
     7
370
    25
100
AcDbLine
 10
-144.5457021057
 20
61.6550414264
 30
0.0
 11
-144.5457021057
 21
174.1550414264
 31
0.0
  0
LINE
  5
90
330
1F
100
AcDbEntity
  8
0
  6
Continuous
 62
     7
370
    25
100
AcDbLine
 10
-369.5457021057
 20
61.6550414264
 30
0.0
 11
-369.5457021057
 21
-89.8449585736
 31
0.0
  0
LINE
  5
91
330
1F
100
AcDbEntity
  8
0
  6
Continuous
 62
     7
370
    25
100
AcDbLine
 10
-144.5457021057
 20
-89.8449585736
 30
0.0
 11
-144.5457021057
 21
61.6550414264
 31
0.0
  0
CIRCLE
  5
92
330
1F
100
AcDbEntity
  8
0
  6
Continuous
 62
     7
370
    25
100
AcDbCircle
 10
-257.0457021057
 20
174.1550414264
 30
0.0
 40
112.5
  0
CIRCLE
  5
93
330
1F
100
AcDbEntity
  8
0
  6
Continuous
 62
     7
370
    25
100
AcDbCircle
 10
-257.0457021057
 20
174.1550414264
 30
0.0
 40
92.0
  0
LINE
  5
94
330
1F
100
AcDbEntity
  8
0
  6
Continuous
 62
     7
370
    25
100
AcDbLine
 10
-369.5457021057
 20
-89.8449585736
 30
0.0
 11
-144.5457021057
 21
-89.8449585736
 31
0.0
  0
LINE
  5
95
330
1F
100
AcDbEntity
  8
0
  6
Continuous
 62
     1
370
    25
100
AcDbLine
 10
-257.0457021057
 20
61.6550414264
 30
0.0
 11
-144.5457021057
 21
61.6550414264
 31
0.0
  0
LINE
  5
96
330
1F
100
AcDbEntity
  8
0
  6
Continuous
 62
     1
370
    25
100
AcDbLine
 10
-369.5457021057
 20
61.6550414264
 30
0.0
 11
-257.0457021057
 21
61.6550414264
 31
0.0
  0
INSERT
  5
A2
330
1F
100
AcDbEntity
  8
FORMAT
 62
     7
100
AcDbBlockReference
  2
SW_CENTERMARKSYMBOL_0
 10
-257.0457021057
 20
174.1550414264
 30
0.0
  0
LINE
  5
A3
330
1F
100
AcDbEntity
  8
0
  6
Continuous
 62
     7
370
    25
100
AcDbLine
 10
361.024379513
 20
611.3338372032
 30
0.0
 11
209.524379513
 21
611.3338372032
 31
0.0
  0
LINE
  5
A4
330
1F
100
AcDbEntity
  8
0
  6
Continuous
 62
     7
370
    25
100
AcDbLine
 10
209.524379513
 20
386.3338372032
 30
0.0
 11
361.024379513
 21
386.3338372032
 31
0.0
  0
LINE
  5
A5
330
1F
100
AcDbEntity
  8
0
  6
Continuous
 62
     7
370
    25
100
AcDbLine
 10
209.524379513
 20
611.3338372032
 30
0.0
 11
97.024379513
 21
611.3338372032
 31
0.0
  0
LINE
  5
A6
330
1F
100
AcDbEntity
  8
0
  6
Continuous
 62
     7
370
    25
100
AcDbLine
 10
97.024379513
 20
386.3338372032
 30
0.0
 11
209.524379513
 21
386.3338372032
 31
0.0
  0
CIRCLE
  5
A7
330
1F
100
AcDbEntity
  8
0
  6
Continuous
 62
     7
370
    25
100
AcDbCircle
 10
97.024379513
 20
498.8338372032
 30
0.0
 40
92.00000000000006
  0
CIRCLE
  5
A8
330
1F
100
AcDbEntity
  8
0
  6
Continuous
 62
     7
370
    25
100
AcDbCircle
 10
97.024379513
 20
498.8338372032
 30
0.0
 40
112.4999999999999
  0
LINE
  5
A9
330
1F
100
AcDbEntity
  8
0
  6
Continuous
 62
     7
370
    25
100
AcDbLine
 10
361.024379513
 20
611.3338372032
 30
0.0
 11
361.024379513
 21
386.3338372032
 31
0.0
  0
LINE
  5
AA
330
1F
100
AcDbEntity
  8
0
  6
Continuous
 62
     1
370
    25
100
AcDbLine
 10
209.524379513
 20
498.8338372032
 30
0.0
 11
209.524379513
 21
386.3338372032
 31
0.0
  0
LINE
  5
AB
330
1F
100
AcDbEntity
  8
0
  6
Continuous
 62
     1
370
    25
100
AcDbLine
 10
209.524379513
 20
611.3338372032
 30
0.0
 11
209.524379513
 21
498.8338372032
 31
0.0
  0
INSERT
  5
B7
330
1F
100
AcDbEntity
  8
FORMAT
 62
     7
100
AcDbBlockReference
  2
SW_CENTERMARKSYMBOL_1
 10
97.024379513
 20
498.8338372032
 30
0.0
  0
LINE
  5
B8
330
1F
100
AcDbEntity
  8
0
  6
Continuous
 62
     7
370
    25
100
AcDbLine
 10
475.8413298902
 20
61.6550414264
 30
0.0
 11
475.8413298902
 21
-89.8449585736
 31
0.0
  0
LINE
  5
B9
330
1F
100
AcDbEntity
  8
0
  6
Continuous
 62
     7
370
    25
100
AcDbLine
 10
700.8413298902
 20
-89.8449585736
 30
0.0
 11
700.8413298902
 21
61.6550414264
 31
0.0
  0
LINE
  5
BA
330
1F
100
AcDbEntity
  8
0
  6
Continuous
 62
     7
370
    25
100
AcDbLine
 10
700.8413298902
 20
61.6550414264
 30
0.0
 11
700.8413298902
 21
174.1550414264
 31
0.0
  0
LINE
  5
BB
330
1F
100
AcDbEntity
  8
0
  6
Continuous
 62
     7
370
    25
100
AcDbLine
 10
475.8413298902
 20
174.1550414264
 30
0.0
 11
475.8413298902
 21
61.6550414264
 31
0.0
  0
LINE
  5
BC
330
1F
100
AcDbEntity
  8
0
  6
Continuous
 62
     7
370
    25
100
AcDbLine
 10
475.8413298902
 20
-89.8449585736
 30
0.0
 11
700.8413298902
 21
-89.8449585736
 31
0.0
  0
ARC
  5
BD
330
1F
100
AcDbEntity
  8
0
  6
Continuous
 62
     7
370
    25
100
AcDbCircle
 10
588.3413298902
 20
174.1550414264
 30
0.0
 40
112.5000000000005
100
AcDbArc
 50
0.0
 51
180.0
  0
LINE
  5
BE
330
1F
100
AcDbEntity
  8
0
  6
Continuous
 62
     1
370
    25
100
AcDbLine
 10
475.8413298902
 20
61.6550414264
 30
0.0
 11
700.8413298902
 21
61.6550414264
 31
0.0
  0
INSERT
  5
CA
330
1F
100
AcDbEntity
  8
FORMAT
 62
     7
100
AcDbBlockReference
  2
SW_CENTERMARKSYMBOL_2
 10
588.3413298902
 20
174.1550414264
 30
0.0
  0
LINE
  5
CB
330
1F
100
AcDbEntity
  8
0
  6
Continuous
 62
     7
370
    25
100
AcDbLine
 10
97.024379513
 20
-528.2596171531
 30
0.0
 11
209.524379513
 21
-528.2596171531
 31
0.0
  0
LINE
  5
CC
330
1F
100
AcDbEntity
  8
0
  6
Continuous
 62
     7
370
    25
100
AcDbLine
 10
209.524379513
 20
-303.2596171531
 30
0.0
 11
97.024379513
 21
-303.2596171531
 31
0.0
  0
LINE
  5
CD
330
1F
100
AcDbEntity
  8
0
  6
Continuous
 62
     7
370
    25
100
AcDbLine
 10
361.024379513
 20
-303.2596171531
 30
0.0
 11
209.524379513
 21
-303.2596171531
 31
0.0
  0
LINE
  5
CE
330
1F
100
AcDbEntity
  8
0
  6
Continuous
 62
     7
370
    25
100
AcDbLine
 10
209.524379513
 20
-528.2596171531
 30
0.0
 11
361.024379513
 21
-528.2596171531
 31
0.0
  0
ARC
  5
CF
330
1F
100
AcDbEntity
  8
0
  6
Continuous
 62
     7
370
    25
100
AcDbCircle
 10
97.024379513
 20
-415.7596171531
 30
0.0
 40
112.5000000000004
100
AcDbArc
 50
90.0
 51
270.0
  0
LINE
  5
D0
330
1F
100
AcDbEntity
  8
0
  6
Continuous
 62
     7
370
    25
100
AcDbLine
 10
361.024379513
 20
-303.2596171531
 30
0.0
 11
361.024379513
 21
-528.2596171531
 31
0.0
  0
LINE
  5
D1
330
1F
100
AcDbEntity
  8
0
  6
Continuous
 62
     1
370
    25
100
AcDbLine
 10
209.524379513
 20
-303.2596171531
 30
0.0
 11
209.524379513
 21
-528.2596171531
 31
0.0
  0
INSERT
  5
DD
330
1F
100
AcDbEntity
  8
FORMAT
 62
     7
100
AcDbBlockReference
  2
SW_CENTERMARKSYMBOL_3
 10
97.024379513
 20
-415.7596171531
 30
0.0
  0
LINE
  5
DE
330
1F
100
AcDbEntity
  8
0
  6
Continuous
 62
     7
370
    25
100
AcDbLine
 10
691.1835639417
 20
-154.0443821159
 30
0.0
 11
584.0568865919
 21
-215.8872965865
 31
0.0
  0
LINE
  5
DF
330
1F
100
AcDbEntity
  8
0
  6
Continuous
 62
     7
370
    25
100
AcDbLine
 10
696.5477440135
 20
-410.7482906221
 30
0.0
 11
803.6744213633
 21
-348.9053761515
 31
0.0
  0
LINE
  5
E0
330
1F
100
AcDbEntity
  8
0
  6
Continuous
 62
     7
370
    25
100
AcDbLine
 10
448.2528024192
 20
-451.1015912315
 30
0.0
 11
448.2528024192
 21
-574.8075242322
 31
0.0
  0
LINE
  5
E1
330
1F
100
AcDbEntity
  8
0
  6
Continuous
 62
     7
370
    25
100
AcDbLine
 10
673.2528024192
 20
-574.8075242322
 30
0.0
 11
673.2528024192
 21
-451.1015912315
 31
0.0
  0
SPLINE
  5
E2
330
1F
100
AcDbEntity
  8
0
  6
Continuous
 62
     7
370
    25
100
AcDbSpline
210
0.0
220
0.0
230
1.0
 70
     8
 71
     3
 72
    41
 73
    37
 74
     0
 42
0.00000001
 43
0.00000001
 40
0.0
 40
0.0
 40
0.0
 40
0.0
 40
0.0191702052196796
 40
0.0486498001320764
 40
0.0781952911843952
 40
0.1078750037388373
 40
0.1376435461144711
 40
0.1674570691239962
 40
0.1972705543558754
 40
0.2270566103521491
 40
0.2567952734820376
 40
0.2864738816794924
 40
0.3160864346071144
 40
0.345632705363817
 40
0.3751172700084368
 40
0.4045485669786221
 40
0.4339380482053897
 40
0.4632994451417591
 40
0.4926481469219074
 40
0.522000672100893
 40
0.5513727760348819
 40
0.5807775675808267
 40
0.610232433492572
 40
0.6397542622579684
 40
0.6693589393479058
 40
0.6990607501620942
 40
0.7288716579998562
 40
0.7588004331665252
 40
0.7888516260565712
 40
0.8190244067322902
 40
0.8493113399591663
 40
0.8796972282528918
 40
0.9101582285484482
 40
0.9406560554593366
 40
0.9711394444548385
 40
1.0
 40
1.0
 40
1.0
 40
1.0
 10
584.0568865919356
 20
-215.8872965864632
 30
0.0
 10
582.5460625085409
 20
-216.7739319264481
 30
0.0
 10
578.711920471479
 20
-219.0240190583278
 30
0.0
 10
572.662493027867
 20
-222.8771321202502
 30
0.0
 10
565.925112719228
 20
-227.4902702752916
 30
0.0
 10
559.3040232398473
 20
-232.3735975977667
 30
0.0
 10
552.803014985944
 20
-237.5145757880076
 30
0.0
 10
546.4370060753047
 20
-242.9000876333191
 30
0.0
 10
540.2182788826733
 20
-248.5148597536588
 30
0.0
 10
534.1572944037503
 20
-254.3444455909641
 30
0.0
 10
528.2620515435884
 20
-260.3755174874395
 30
0.0
 10
522.5390959728845
 20
-266.5956323916122
 30
0.0
 10
516.9937474703831
 20
-272.9933108710476
 30
0.0
 10
511.6303853346066
 20
-279.5580750630533
 30
0.0
 10
506.4527207161653
 20
-286.2804058650344
 30
0.0
 10
501.4640438881228
 20
-293.1516648659797
 30
0.0
 10
496.6674349927679
 20
-300.16399609375
 30
0.0
 10
492.0659379442636
 20
-307.3102223519855
 30
0.0
 10
487.662701214844
 20
-314.5837430363062
 30
0.0
 10
483.4611599141684
 20
-321.9783157717312
 30
0.0
 10
479.4652415236835
 20
-329.4877049226072
 30
0.0
 10
475.6791942958642
 20
-337.1059450426912
 30
0.0
 10
472.107594588541
 20
-344.8273861187881
 30
0.0
 10
468.7553249777856
 20
-352.6468622725572
 30
0.0
 10
465.6278293963078
 20
-360.5591879399359
 30
0.0
 10
462.7311644569643
 20
-368.5589931267539
 30
0.0
 10
460.0720370011895
 20
-376.6405206375437
 30
0.0
 10
457.6578270322929
 20
-384.7973780862652
 30
0.0
 10
455.4965578659613
 20
-393.0222452599739
 30
0.0
 10
453.5968967507089
 20
-401.306534615023
 30
0.0
 10
451.9677970040682
 20
-409.6400576640037
 30
0.0
 10
450.6191567411738
 20
-418.0106095972239
 30
0.0
 10
449.5583259289812
 20
-426.4034934945549
 30
0.0
 10
448.8018303385603
 20
-434.7998994642448
 30
0.0
 10
448.3372472535352
 20
-443.038919217484
 30
0.0
 10
448.2804328102923
 20
-448.4634810072071
 30
0.0
 10
448.2528024192277
 20
-451.1015912314642
 30
0.0
  0
SPLINE
  5
E3
330
1F
100
AcDbEntity
  8
0
  6
Continuous
 62
     7
370
    25
100
AcDbSpline
210
0.0
220
0.0
230
1.0
 70
     8
 71
     3
 72
    36
 73
    32
 74
     0
 42
0.00000001
 43
0.00000001
 40
0.0
 40
0.0
 40
0.0
 40
0.0
 40
0.0079303028528994
 40
0.0458395598986549
 40
0.0825690379461398
 40
0.1184007908514118
 40
0.1535930689331029
 40
0.1883757818720013
 40
0.2229467283621253
 40
0.2574686851360438
 40
0.29206758652312
 40
0.3268080806053844
 40
0.3617463096865869
 40
0.3969123091857277
 40
0.432305942980196
 40
0.4679021851602093
 40
0.5036574248714573
 40
0.5395165801070311
 40
0.5754082985358281
 40
0.6112709975846833
 40
0.6470661437572739
 40
0.6827777740291469
 40
0.7184194124492655
 40
0.7540398972376416
 40
0.7897277075150511
 40
0.825589082325778
 40
0.8617652378444489
 40
0.8984537049534088
 40
0.9358894196428162
 40
0.9743401027623145
 40
1.0
 40
1.0
 40
1.0
 40
1.0
 10
673.2519905511539
 20
-451.1870448757791
 30
0.0
 10
673.2518715217188
 20
-451.1948179507827
 30
0.0
 10
673.2511834954202
 20
-451.2397486859434
 30
0.0
 10
673.2592851213808
 20
-451.0348403922548
 30
0.0
 10
673.3056546533562
 20
-450.5569068557706
 30
0.0
 10
673.409309028983
 20
-449.7782454015654
 30
0.0
 10
673.5873259206213
 20
-448.7444112774211
 30
0.0
 10
673.8554871809798
 20
-447.4634860480658
 30
0.0
 10
674.227269801983
 20
-445.9552825231946
 30
0.0
 10
674.7138739000521
 20
-444.2392236970937
 30
0.0
 10
675.3236821556675
 20
-442.3385713245667
 30
0.0
 10
676.0619014721776
 20
-440.2794979641394
 30
0.0
 10
676.9302252470636
 20
-438.0911020738673
 30
0.0
 10
677.9268113215697
 20
-435.804498683576
 30
0.0
 10
679.0458817047215
 20
-433.4529451852148
 30
0.0
 10
680.2775037906096
 20
-431.0714031252907
 30
0.0
 10
681.6075880039823
 20
-428.6957400392039
 30
0.0
 10
683.0178995956852
 20
-426.3620518577246
 30
0.0
 10
684.4864522490816
 20
-424.1054678588134
 30
0.0
 10
685.9882084050279
 20
-421.9588055845965
 30
0.0
 10
687.4960191666455
 20
-419.9513011815147
 30
0.0
 10
688.9813667943424
 20
-418.1079320883366
 30
0.0
 10
690.4150068299947
 20
-416.4490281279197
 30
0.0
 10
691.7676893818392
 20
-414.9899361015092
 30
0.0
 10
693.010338765214
 20
-413.7413035243408
 30
0.0
 10
694.114885454498
 20
-412.7088221601813
 30
0.0
 10
695.0535220761849
 20
-411.8939763665111
 30
0.0
 10
695.804272909455
 20
-411.2910126806032
 30
0.0
 10
696.3306462685678
 20
-410.9002782529234
 30
0.0
 10
696.6185445530022
 20
-410.7069236611325
 30
0.0
 10
696.6141001654993
 20
-410.7100554030816
 30
0.0
 10
696.6123213245345
 20
-410.7113088650865
 30
0.0
  0
LWPOLYLINE
  5
E4
330
1F
100
AcDbEntity
  8
0
  6
Continuous
 62
     7
370
    25
100
AcDbPolyline
 90
      113
 70
   128
 43
0.0
 10
667.879479769
 20
-205.5519228437
 10
668.004625868
 20
-210.7748466062
 10
668.3796704091
 20
-216.1258277286
 10
669.0034333634
 20
-221.5880300447
 10
669.8739521419
 20
-227.144267445
 10
670.9884877704
 20
-232.7770579512
 10
672.3435335076
 20
-238.4686787203
 10
673.9348258782
 20
-244.2012218078
 10
675.7573580877
 20
-249.9566505122
 10
677.8053957754
 20
-255.7168561256
 10
680.0724950572
 20
-261.4637149099
 10
682.5515227999
 20
-267.1791451214
 10
685.2346790652
 20
-272.845163902
 10
688.1135216506
 20
-278.4439438606
 10
691.1789926525
 20
-283.9578691639
 10
694.4214469648
 20
-289.369590963
 10
697.8306826268
 20
-294.6620819791
 10
701.3959729217
 20
-299.8186900772
 10
705.1061001273
 20
-304.8231906606
 10
708.9493908107
 20
-309.659837719
 10
712.9137525576
 20
-314.3134133714
 10
716.9867120193
 20
-318.769275747
 10
721.1554541583
 20
-323.0134050543
 10
725.4068625698
 20
-327.0324476923
 10
729.7275607499
 20
-330.8137582661
 10
734.1039541836
 20
-334.3454393736
 10
738.5222731182
 20
-337.6163790394
 10
742.9686158876
 20
-340.6162856772
 10
747.4289926525
 20
-343.3357204709
 10
751.8893694174
 20
-345.7661270725
 10
756.3357121867
 20
-347.8998585236
 10
760.7540311213
 20
-349.7302013158
 10
765.1304245551
 20
-351.2513965135
 10
769.4511227352
 20
-352.4586578737
 10
773.7025311466
 20
-353.3481869056
 10
777.8712732857
 20
-353.9171848218
 10
781.9442327473
 20
-354.1638613443
 10
785.9085944942
 20
-354.0874403374
 10
789.7518851777
 20
-353.6881622501
 10
793.4620123832
 20
-352.9672833587
 10
797.0273026782
 20
-351.9270718151
 10
800.4365383401
 20
-350.5708005096
 10
803.6789926525
 20
-348.9027367735
 10
806.7444636543
 20
-346.9281289525
 10
809.6233062398
 20
-344.6531898931
 10
812.306462505
 20
-342.0850773955
 10
814.7854902477
 20
-339.2318716916
 10
817.0525895295
 20
-336.1025500222
 10
819.1006272173
 20
-332.7069583909
 10
820.9231594268
 20
-329.0557805853
 10
822.5144517974
 20
-325.1605045616
 10
823.8694975345
 20
-321.0333862992
 10
824.9840331631
 20
-316.6874112391
 10
825.8545519415
 20
-312.1362534267
 10
826.4783148959
 20
-307.3942324882
 10
826.853359437
 20
-302.4762685759
 10
826.978505536
 20
-297.3978354237
 10
826.853359437
 20
-292.1749116612
 10
826.4783148959
 20
-286.8239305388
 10
825.8545519415
 20
-281.3617282228
 10
824.9840331631
 20
-275.8054908224
 10
823.8694975345
 20
-270.1727003162
 10
822.5144517973
 20
-264.4810795471
 10
820.9231594268
 20
-258.7485364596
 10
819.1006272173
 20
-252.9931077552
 10
817.0525895295
 20
-247.2329021419
 10
814.7854902477
 20
-241.4860433575
 10
812.306462505
 20
-235.7706131461
 10
809.6233062398
 20
-230.1045943654
 10
806.7444636543
 20
-224.5058144068
 10
803.6789926525
 20
-218.9918891035
 10
800.4365383401
 20
-213.5801673044
 10
797.0273026782
 20
-208.2876762884
 10
793.4620123832
 20
-203.1310681902
 10
789.7518851777
 20
-198.1265676068
 10
785.9085944942
 20
-193.2899205484
 10
781.9442327473
 20
-188.6363448961
 10
777.8712732857
 20
-184.1804825205
 10
773.7025311466
 20
-179.9363532132
 10
769.4511227352
 20
-175.9173105751
 10
765.1304245551
 20
-172.1360000013
 10
760.7540311213
 20
-168.6043188939
 10
756.3357121867
 20
-165.3333792281
 10
751.8893694174
 20
-162.3334725902
 10
747.4289926525
 20
-159.6140377966
 10
742.9686158876
 20
-157.183631195
 10
738.5222731182
 20
-155.0498997438
 10
734.1039541836
 20
-153.2195569516
 10
729.7275607499
 20
-151.6983617539
 10
725.4068625698
 20
-150.4911003937
 10
721.1554541583
 20
-149.6015713618
 10
716.9867120193
 20
-149.0325734456
 10
712.9137525576
 20
-148.7858969232
 10
708.9493908107
 20
-148.86231793
 10
705.1061001273
 20
-149.2615960174
 10
701.3959729217
 20
-149.9824749087
 10
697.8306826268
 20
-151.0226864523
 10
694.4214469648
 20
-152.3789577578
 10
691.1789926525
 20
-154.0470214939
 10
688.1135216506
 20
-156.021629315
 10
685.2346790652
 20
-158.2965683743
 10
682.5515227999
 20
-160.8646808719
 10
680.0724950572
 20
-163.7178865758
 10
677.8053957754
 20
-166.8472082452
 10
675.7573580877
 20
-170.2427998765
 10
673.9348258782
 20
-173.8939776821
 10
672.3435335076
 20
-177.7892537058
 10
670.9884877704
 20
-181.9163719682
 10
669.8739521419
 20
-186.2623470283
 10
669.0034333634
 20
-190.8135048407
 10
668.3796704091
 20
-195.5555257792
 10
668.004625868
 20
-200.4734896915
 10
667.879479769
 20
-205.5519228437
  0
LWPOLYLINE
  5
E5
330
1F
100
AcDbEntity
  8
0
  6
Continuous
 62
     7
370
    25
100
AcDbPolyline
 90
      102
 70
   128
 43
0.0
 10
682.3751687833
 20
-213.9201059899
 10
682.5010090867
 20
-209.3224597982
 10
682.8780431451
 20
-204.8878931281
 10
683.504812287
 20
-200.6335624565
 10
684.3788916644
 20
-196.5759269623
 10
685.4968996339
 20
-192.730684849
 10
686.85451084
 20
-189.1127126114
 10
688.4464729485
 20
-185.7360074811
 10
690.2666269674
 20
-182.6136332743
 10
692.3079310744
 20
-179.7576698503
 10
694.5624878604
 20
-177.1791663766
 10
697.0215748832
 20
-174.8880985825
 10
699.6756784129
 20
-172.8933301639
 10
702.5145302385
 20
-171.2025784926
 10
705.5271473937
 20
-169.8223847581
 10
708.7018746481
 20
-168.758088662
 10
712.0264295986
 20
-168.013807759
 10
715.487950188
 20
-167.5924215274
 10
719.0730444657
 20
-167.4955602288
 10
722.7678423982
 20
-167.7235986005
 10
726.5580495302
 20
-168.2756544065
 10
730.4290022866
 20
-169.1495918501
 10
734.3657247032
 20
-170.342029837
 10
738.3529863658
 20
-171.8483550565
 10
742.3753613335
 20
-173.6627398288
 10
746.417287819
 20
-175.7781646517
 10
750.4631283939
 20
-178.1864453575
 10
754.4972304871
 20
-180.8782647761
 10
758.5039869413
 20
-183.8432087811
 10
762.4678963941
 20
-187.06980658
 10
766.3736232498
 20
-190.5455750929
 10
770.2060570101
 20
-194.2570672465
 10
773.9503707332
 20
-198.1899239987
 10
777.5920783968
 20
-202.3289298909
 10
781.1170909413
 20
-206.6580719132
 10
784.5117707781
 20
-211.1606014562
 10
787.7629845502
 20
-215.8190991079
 10
790.8581539432
 20
-220.6155420457
 10
793.7853043481
 20
-225.5313737637
 10
796.5331111886
 20
-230.547575864
 10
799.0909437337
 20
-235.6447416352
 10
801.4489062263
 20
-240.8031511332
 10
803.5978761676
 20
-246.0028474735
 10
805.5295396104
 20
-251.2237140414
 10
807.236423324
 20
-256.4455523181
 10
808.711923707
 20
-261.648160026
 10
809.9503323349
 20
-266.8114092864
 10
810.9468580455
 20
-271.9153244911
 10
811.6976454744
 20
-276.9401595836
 10
812.1997899707
 20
-281.8664744531
 10
812.4513488351
 20
-286.6752101443
 10
812.4513488351
 20
-291.3477625932
 10
812.1997899707
 20
-295.866054602
 10
811.6976454744
 20
-300.2126057766
 10
810.9468580455
 20
-304.370600155
 10
809.9503323349
 20
-308.3239512646
 10
808.711923707
 20
-312.0573643581
 10
807.236423324
 20
-315.5563955855
 10
805.5295396104
 20
-318.8075078746
 10
803.5978761676
 20
-321.7981233036
 10
801.4489062263
 20
-324.5166717625
 10
799.0909437337
 20
-326.9526357153
 10
796.5331111886
 20
-329.0965908907
 10
793.7853043481
 20
-330.9402427427
 10
790.8581539432
 20
-332.4764585404
 10
787.7629845502
 20
-333.6992949634
 10
784.5117707781
 20
-334.604021095
 10
781.1170909413
 20
-335.1871367256
 10
777.5920783968
 20
-335.4463858941
 10
773.9503707332
 20
-335.3807656159
 10
770.2060570101
 20
-334.9905297631
 10
766.3736232498
 20
-334.2771880823
 10
762.4678963941
 20
-333.2435003539
 10
758.5039869413
 20
-331.8934657151
 10
754.4972304871
 20
-330.2323071874
 10
750.4631283939
 20
-328.2664514706
 10
746.417287819
 20
-326.0035040785
 10
742.3753613335
 20
-323.4522199149
 10
738.3529863658
 20
-320.6224694027
 10
734.3657247032
 20
-317.5252002969
 10
730.4290022866
 20
-314.1723953298
 10
726.5580495302
 20
-310.5770258527
 10
722.7678423982
 20
-306.7530016516
 10
719.0730444657
 20
-302.7151171331
 10
715.487950188
 20
-298.4789940881
 10
712.0264295986
 20
-294.0610212538
 10
708.7018746481
 20
-289.4782909086
 10
705.5271473937
 20
-284.7485327461
 10
702.5145302385
 20
-279.8900452818
 10
699.6756784129
 20
-274.9216250598
 10
697.0215748832
 20
-269.8624939327
 10
694.5624878604
 20
-264.732224696
 10
692.3079310744
 20
-259.5506653649
 10
690.2666269674
 20
-254.3378623857
 10
688.4464729485
 20
-249.1139830805
 10
686.85451084
 20
-243.8992376234
 10
685.4968996339
 20
-238.7138008517
 10
684.3788916644
 20
-233.5777342127
 10
683.504812287
 20
-228.5109081507
 10
682.8780431451
 20
-223.5329252312
 10
682.5010090867
 20
-218.6630443032
 10
682.3751687833
 20
-213.9201059899
  0
LWPOLYLINE
  5
E6
330
1F
100
AcDbEntity
  8
0
  6
Continuous
 62
     7
370
    25
100
AcDbPolyline
 90
      113
 70
   128
 43
0.0
 10
481.2032895357
 20
-528.8845679421
 10
485.7888123996
 20
-526.3818925497
 10
490.6101997101
 20
-524.0315821102
 10
495.652281599
 20
-521.84103157
 10
500.8991938113
 20
-519.8171332114
 10
506.3344276199
 20
-517.9662549674
 10
511.9408817685
 20
-516.2942203858
 10
517.7009162782
 20
-514.806290306
 10
523.5964079493
 20
-513.5071463063
 10
529.6088073839
 20
-512.4008759746
 10
535.7191973491
 20
-511.4909600466
 10
541.9083522974
 20
-510.7802614543
 10
548.1567988576
 20
-510.2710163186
 10
554.444877105
 20
-509.9648269129
 10
560.7528024192
 20
-509.8626566225
 10
567.0607277334
 20
-509.9648269129
 10
573.3488059808
 20
-510.2710163186
 10
579.597252541
 20
-510.7802614543
 10
585.7864074893
 20
-511.4909600466
 10
591.8967974545
 20
-512.4008759746
 10
597.9091968892
 20
-513.5071463063
 10
603.8046885603
 20
-514.806290306
 10
609.56472307
 20
-516.2942203858
 10
615.1711772186
 20
-517.9662549674
 10
620.6064110272
 20
-519.8171332114
 10
625.8533232395
 20
-521.84103157
 10
630.8954051283
 20
-524.0315821102
 10
635.7167924388
 20
-526.3818925497
 10
640.3023153027
 20
-528.8845679421
 10
644.6375459686
 20
-531.5317339449
 10
648.7088441969
 20
-534.3150615945
 10
652.5034001771
 20
-537.2257935123
 10
656.0092748324
 20
-540.2547714588
 10
659.215437384
 20
-543.3924651488
 10
662.1118000583
 20
-546.6290022372
 10
664.6892498267
 20
-549.9541993808
 10
666.9396770789
 20
-553.3575942792
 10
668.8560011381
 20
-556.828478593
 10
670.4321925397
 20
-560.355931636
 10
671.6632920025
 20
-563.9288547358
 10
672.5454260322
 20
-567.5360061546
 10
673.0758191087
 20
-571.1660364595
 10
673.2528024192
 20
-574.8075242322
 10
673.0758191087
 20
-578.4490120048
 10
672.5454260322
 20
-582.0790423097
 10
671.6632920025
 20
-585.6861937285
 10
670.4321925397
 20
-589.2591168283
 10
668.8560011381
 20
-592.7865698713
 10
666.9396770789
 20
-596.2574541851
 10
664.6892498267
 20
-599.6608490835
 10
662.1118000582
 20
-602.9860462271
 10
659.215437384
 20
-606.2225833155
 10
656.0092748324
 20
-609.3602770055
 10
652.5034001771
 20
-612.389254952
 10
648.7088441969
 20
-615.2999868698
 10
644.6375459686
 20
-618.0833145194
 10
640.3023153027
 20
-620.7304805222
 10
635.7167924388
 20
-623.2331559146
 10
630.8954051283
 20
-625.5834663541
 10
625.8533232395
 20
-627.7740168943
 10
620.6064110272
 20
-629.7979152529
 10
615.1711772186
 20
-631.6487934969
 10
609.56472307
 20
-633.3208280785
 10
603.8046885603
 20
-634.8087581583
 10
597.9091968892
 20
-636.107902158
 10
591.8967974545
 20
-637.2141724897
 10
585.7864074893
 20
-638.1240884177
 10
579.597252541
 20
-638.83478701
 10
573.3488059808
 20
-639.3440321457
 10
567.0607277334
 20
-639.6502215514
 10
560.7528024192
 20
-639.7523918418
 10
554.444877105
 20
-639.6502215514
 10
548.1567988576
 20
-639.3440321457
 10
541.9083522974
 20
-638.83478701
 10
535.7191973491
 20
-638.1240884177
 10
529.6088073839
 20
-637.2141724897
 10
523.5964079493
 20
-636.107902158
 10
517.7009162782
 20
-634.8087581583
 10
511.9408817685
 20
-633.3208280785
 10
506.3344276199
 20
-631.6487934969
 10
500.8991938113
 20
-629.7979152529
 10
495.652281599
 20
-627.7740168943
 10
490.6101997101
 20
-625.5834663541
 10
485.7888123996
 20
-623.2331559146
 10
481.2032895357
 20
-620.7304805222
 10
476.8680588699
 20
-618.0833145194
 10
472.7967606416
 20
-615.2999868698
 10
469.0022046613
 20
-612.389254952
 10
465.496330006
 20
-609.3602770055
 10
462.2901674545
 20
-606.2225833155
 10
459.3938047802
 20
-602.9860462271
 10
456.8163550117
 20
-599.6608490835
 10
454.5659277595
 20
-596.2574541851
 10
452.6496037004
 20
-592.7865698713
 10
451.0734122988
 20
-589.2591168283
 10
449.8423128359
 20
-585.6861937285
 10
448.9601788062
 20
-582.0790423097
 10
448.4297857297
 20
-578.4490120048
 10
448.2528024192
 20
-574.8075242322
 10
448.4297857297
 20
-571.1660364595
 10
448.9601788062
 20
-567.5360061546
 10
449.8423128359
 20
-563.9288547358
 10
451.0734122988
 20
-560.355931636
 10
452.6496037004
 20
-556.828478593
 10
454.5659277595
 20
-553.3575942792
 10
456.8163550117
 20
-549.9541993808
 10
459.3938047802
 20
-546.6290022372
 10
462.2901674545
 20
-543.3924651488
 10
465.496330006
 20
-540.2547714588
 10
469.0022046613
 20
-537.2257935123
 10
472.7967606416
 20
-534.3150615945
 10
476.8680588699
 20
-531.5317339449
 10
481.2032895357
 20
-528.8845679421
  0
LWPOLYLINE
  5
E7
330
1F
100
AcDbEntity
  8
0
  6
Continuous
 62
     7
370
    25
100
AcDbPolyline
 90
      102
 70
   128
 43
0.0
 10
495.6989785501
 20
-537.2527510883
 10
491.78044621
 20
-539.6601637793
 10
488.1287545169
 20
-542.2035547799
 10
484.7580311568
 20
-544.8730842044
 10
481.6813168034
 20
-547.6584241622
 10
478.9105146668
 20
-550.5487987139
 10
476.4563444423
 20
-553.5330255619
 10
474.3283008377
 20
-556.5995593124
 10
472.5346168402
 20
-559.736536142
 10
471.0822318648
 20
-562.9318196967
 10
469.9767649069
 20
-566.1730480451
 10
469.2224928033
 20
-569.4476815045
 10
468.8223336862
 20
-572.7430511543
 10
468.7778356936
 20
-576.0464078492
 10
469.0891709796
 20
-579.3449715442
 10
469.7551350483
 20
-582.625980737
 10
470.7731514143
 20
-585.8767418404
 10
472.1392815699
 20
-589.0846782913
 10
473.848240223
 20
-592.2373792067
 10
475.8934157445
 20
-595.3226473992
 10
478.2668957476
 20
-598.3285465657
 10
480.9594976994
 20
-601.2434474661
 10
483.9608044459
 20
-604.0560729151
 10
487.2592045144
 20
-606.7555414113
 10
490.8419370358
 20
-609.3314092355
 10
494.6951411139
 20
-611.7737108555
 10
498.8039094509
 20
-614.0729974808
 10
503.15234602
 20
-616.220373618
 10
507.7236275651
 20
-618.2075314862
 10
512.5000686859
 20
-620.0267831574
 10
517.4631902596
 20
-621.6710903005
 10
522.593790933
 20
-623.1340914106
 10
527.8720214088
 20
-624.4101264205
 10
533.2774612386
 20
-625.4942585986
 10
538.7891978259
 20
-626.3822936483
 10
544.3859073326
 20
-627.0707959344
 10
550.0459371768
 20
-627.5571017754
 10
555.7473898027
 20
-627.8393297483
 10
561.4682073976
 20
-627.916387968
 10
567.1862572296
 20
-627.7879783112
 10
572.8794172747
 20
-627.45459757
 10
578.5256618028
 20
-626.9175355296
 10
584.1031465906
 20
-626.1788699788
 10
589.590293433
 20
-625.241458671
 10
594.9658736248
 20
-624.1089282686
 10
600.2090900907
 20
-622.7856603116
 10
605.2996578446
 20
-621.2767742667
 10
610.2178824688
 20
-619.5881077208
 10
614.9447363078
 20
-617.7261937969
 10
619.4619320823
 20
-615.698235878
 10
623.7519936394
 20
-613.5120797396
 10
627.7983235643
 20
-611.1761831949
 10
631.5852673926
 20
-608.6995833739
 10
635.0981741744
 20
-606.0918617602
 10
638.3234531557
 20
-603.3631071221
 10
641.2486263588
 20
-600.5238764813
 10
643.8623768568
 20
-597.5851542694
 10
646.1545925567
 20
-594.5583098319
 10
648.1164053213
 20
-591.4550534418
 10
649.7402252782
 20
-588.2873909952
 10
651.0197701834
 20
-585.0675775629
 10
651.9500897262
 20
-581.8080699774
 10
652.527584681
 20
-578.5214786404
 10
652.7500208322
 20
-575.2205187353
 10
652.6165376173
 20
-571.9179610347
 10
652.127651457
 20
-568.6265824928
 10
651.285253757
 20
-565.3591168137
 10
650.0926035902
 20
-562.1282051873
 10
648.5543150885
 20
-558.9463473832
 10
646.6763395912
 20
-555.825853391
 10
644.4659426207
 20
-552.7787957958
 10
641.9316757735
 20
-549.8169630715
 10
639.0833436357
 20
-546.9518139734
 10
635.931965851
 20
-544.1944332069
 10
632.4897344878
 20
-541.5554885424
 10
628.7699668705
 20
-539.0451895442
 10
624.7870540575
 20
-536.6732480715
 10
620.5564051647
 20
-534.448840705
 10
616.0943877507
 20
-532.3805732447
 10
611.4182644941
 20
-530.4764474156
 10
606.5461264074
 20
-528.7438299107
 10
601.4968228463
 20
-527.1894238904
 10
596.2898885854
 20
-525.8192430497
 10
590.9454682419
 20
-524.6385883521
 10
585.4842383397
 20
-523.6520275212
 10
579.9273273164
 20
-522.8633773693
 10
574.2962337813
 20
-522.2756890305
 10
568.6127433413
 20
-521.8912361569
 10
562.8988443168
 20
-521.711506122
 10
557.1766426731
 20
-521.7371942663
 10
551.4682764967
 20
-521.9682012075
 10
545.7958303475
 20
-522.4036332245
 10
540.1812498175
 20
-523.0418057154
 10
534.6462566282
 20
-523.8802497149
 10
529.2122645929
 20
-524.915721446
 10
523.9002967711
 20
-526.1442148697
 10
518.7309041345
 20
-527.5609771837
 10
513.7240860589
 20
-529.1605272098
 10
508.8992129507
 20
-530.9366765996
 10
504.2749513067
 20
-532.8825537763
 10
499.8691914969
 20
-534.990630519
 10
495.6989785501
 20
-537.2527510883
  0
LWPOLYLINE
  5
E8
330
1F
100
AcDbEntity
  8
0
  6
Continuous
 62
     1
370
    25
100
AcDbPolyline
 90
       15
 70
   128
 43
0.0
 10
640.3023153027
 20
-405.1786349414
 10
644.7626920676
 20
-407.609041543
 10
649.209034837
 20
-409.7427729942
 10
653.6273537716
 20
-411.5731157864
 10
658.0037472053
 20
-413.0943109841
 10
662.3244453854
 20
-414.3015723443
 10
666.5758537969
 20
-415.1911013762
 10
670.7445959359
 20
-415.7600992924
 10
674.8175553976
 20
-416.0067758148
 10
678.7819171445
 20
-415.930354808
 10
682.6252078279
 20
-415.5310767206
 10
686.3353350335
 20
-414.8101978293
 10
689.9006253284
 20
-413.7699862857
 10
693.3098609904
 20
-412.4137149802
 10
696.5477440135
 20
-410.7482906221
  0
LWPOLYLINE
  5
E9
330
1F
100
AcDbEntity
  8
0
  6
Continuous
 62
     1
370
    25
100
AcDbPolyline
 90
       44
 70
   128
 43
0.0
 10
584.0568865919
 20
-215.8872965865
 10
584.0523153027
 20
-215.8899359645
 10
580.9868443009
 20
-217.8645437856
 10
578.1080017154
 20
-220.1394828449
 10
575.4248454502
 20
-222.7075953425
 10
572.9458177074
 20
-225.5608010464
 10
570.6787184257
 20
-228.6901227158
 10
568.6306807379
 20
-232.0857143471
 10
566.8081485284
 20
-235.7368921527
 10
565.2168561578
 20
-239.6321681764
 10
563.8618104207
 20
-243.7592864388
 10
562.7472747921
 20
-248.1052614989
 10
561.8767560136
 20
-252.6564193113
 10
561.2529930593
 20
-257.3984402498
 10
560.8779485182
 20
-262.3164041621
 10
560.7528024192
 20
-267.3948373143
 10
560.8779485182
 20
-272.6177610768
 10
561.2529930593
 20
-277.9687421992
 10
561.8767560136
 20
-283.4309445153
 10
562.7472747921
 20
-288.9871819156
 10
563.8618104207
 20
-294.6199724218
 10
565.2168561578
 20
-300.3115931909
 10
566.8081485284
 20
-306.0441362784
 10
568.6306807379
 20
-311.7995649828
 10
570.6787184257
 20
-317.5597705961
 10
572.9458177074
 20
-323.3066293805
 10
575.4248454502
 20
-329.022059592
 10
578.1080017154
 20
-334.6880783726
 10
580.9868443009
 20
-340.2868583312
 10
584.0523153027
 20
-345.8007836345
 10
587.2947696151
 20
-351.2125054336
 10
590.704005277
 20
-356.5049964496
 10
594.269295572
 20
-361.6616045478
 10
597.9794227775
 20
-366.6661051312
 10
601.822713461
 20
-371.5027521896
 10
605.7870752078
 20
-376.1563278419
 10
609.8600346695
 20
-380.6121902175
 10
614.0287768086
 20
-384.8563195248
 10
618.28018522
 20
-388.8753621629
 10
622.6008834001
 20
-392.6566727367
 10
626.9772768339
 20
-396.1883538442
 10
631.3955957684
 20
-399.45929351
 10
635.8419385378
 20
-402.4592001478
 10
640.3023153027
 20
-405.1786349414
  0
LWPOLYLINE
  5
EA
330
1F
100
AcDbEntity
  8
0
  6
Continuous
 62
     1
370
    25
100
AcDbPolyline
 90
       15
 70
   128
 43
0.0
 10
640.3023153027
 20
-405.1786349414
 10
644.6375459686
 20
-407.8258009442
 10
648.7088441969
 20
-410.6091285938
 10
652.5034001771
 20
-413.5198605116
 10
656.0092748324
 20
-416.5488384581
 10
659.215437384
 20
-419.6865321481
 10
662.1118000582
 20
-422.9230692365
 10
664.6892498267
 20
-426.2482663801
 10
666.9396770789
 20
-429.6516612786
 10
668.8560011381
 20
-433.1225455923
 10
670.4321925397
 20
-436.6499986353
 10
671.6632920025
 20
-440.2229217352
 10
672.5454260322
 20
-443.830073154
 10
673.0758191087
 20
-447.4601034588
 10
673.2528024192
 20
-451.1015912315
  0
LWPOLYLINE
  5
EB
330
1F
100
AcDbEntity
  8
0
  6
Continuous
 62
     1
370
    25
100
AcDbPolyline
 90
       43
 70
   128
 43
0.0
 10
448.2528024192
 20
-451.1015912315
 10
448.4297857297
 20
-447.4601034588
 10
448.9601788062
 20
-443.830073154
 10
449.8423128359
 20
-440.2229217351
 10
451.0734122988
 20
-436.6499986353
 10
452.6496037004
 20
-433.1225455923
 10
454.5659277595
 20
-429.6516612786
 10
456.8163550117
 20
-426.2482663801
 10
459.3938047802
 20
-422.9230692365
 10
462.2901674545
 20
-419.6865321481
 10
465.496330006
 20
-416.5488384581
 10
469.0022046613
 20
-413.5198605116
 10
472.7967606416
 20
-410.6091285938
 10
476.8680588699
 20
-407.8258009442
 10
481.2032895357
 20
-405.1786349414
 10
485.7888123996
 20
-402.675959549
 10
490.6101997101
 20
-400.3256491095
 10
495.652281599
 20
-398.1350985693
 10
500.8991938113
 20
-396.1112002107
 10
506.3344276199
 20
-394.2603219668
 10
511.9408817685
 20
-392.5882873851
 10
517.7009162782
 20
-391.1003573053
 10
523.5964079493
 20
-389.8012133057
 10
529.6088073839
 20
-388.6949429739
 10
535.7191973491
 20
-387.7850270459
 10
541.9083522974
 20
-387.0743284536
 10
548.1567988576
 20
-386.5650833179
 10
554.444877105
 20
-386.2588939122
 10
560.7528024192
 20
-386.1567236218
 10
567.0607277334
 20
-386.2588939122
 10
573.3488059809
 20
-386.5650833179
 10
579.597252541
 20
-387.0743284536
 10
585.7864074893
 20
-387.7850270459
 10
591.8967974545
 20
-388.6949429739
 10
597.9091968892
 20
-389.8012133057
 10
603.8046885603
 20
-391.1003573053
 10
609.56472307
 20
-392.5882873851
 10
615.1711772186
 20
-394.2603219668
 10
620.6064110272
 20
-396.1112002107
 10
625.8533232395
 20
-398.1350985693
 10
630.8954051283
 20
-400.3256491095
 10
635.7167924388
 20
-402.675959549
 10
640.3023153027
 20
-405.1786349414
  0
ENDSEC
  0
SECTION
  2
OBJECTS
  0
DICTIONARY
  5
C
330
0
100
AcDbDictionary
281
     1
  3
ACAD_GROUP
350
D
  3
ACAD_LAYOUT
350
1A
  3
ACAD_MLINESTYLE
350
17
  3
ACAD_PLOTSETTINGS
350
19
  3
ACAD_PLOTSTYLENAME
350
E
  3
ACAD_SCALELIST
350
47
  3
DWGPROPS
350
EC
  0
DICTIONARY
  5
D
102
{ACAD_REACTORS
330
C
102
}
330
C
100
AcDbDictionary
281
     1
  0
DICTIONARY
  5
1A
102
{ACAD_REACTORS
330
C
102
}
330
C
100
AcDbDictionary
281
     1
  3
Layout1
350
1E
  3
Layout2
350
26
  3
Model
350
22
  0
DICTIONARY
  5
17
102
{ACAD_REACTORS
330
C
102
}
330
C
100
AcDbDictionary
281
     1
  3
Standard
350
18
  0
DICTIONARY
  5
19
102
{ACAD_REACTORS
330
C
102
}
330
C
100
AcDbDictionary
281
     1
  0
ACDBDICTIONARYWDFLT
  5
E
102
{ACAD_REACTORS
330
C
102
}
330
C
100
AcDbDictionary
281
     1
  3
Normal
350
F
100
AcDbDictionaryWithDefault
340
F
  0
DICTIONARY
  5
47
102
{ACAD_REACTORS
330
C
102
}
330
C
100
AcDbDictionary
281
     1
  3
A0
350
48
  3
A1
350
49
  3
A2
350
4A
  3
A3
350
4B
  3
A4
350
4C
  3
A5
350
4D
  3
A6
350
4E
  3
A7
350
4F
  3
A8
350
50
  3
A9
350
51
  3
B0
350
52
  3
B1
350
53
  3
B2
350
54
  3
B3
350
55
  3
B4
350
56
  3
B5
350
57
  3
B6
350
58
  3
B7
350
59
  3
B8
350
5A
  3
B9
350
5B
  3
C0
350
5C
  3
C1
350
5D
  3
C2
350
5E
  3
C3
350
5F
  3
C4
350
60
  3
C5
350
61
  3
C6
350
62
  3
C7
350
63
  3
C8
350
64
  3
C9
350
65
  3
D0
350
66
  3
D1
350
67
  3
D2
350
68
  0
XRECORD
  5
EC
102
{ACAD_REACTORS
330
C
102
}
330
C
100
AcDbXrecord
280
     1
  1
DWGPROPS COOKIE
  2

  3

  4

  6

  7

  8
b.kav
  9

300
=
301
=
302
=
303
=
304
=
305
=
306
=
307
=
308
=
309
=
 40
0.0
 41
2459935.574410012
 42
2459935.574410185
  1

 90
        0
  0
LAYOUT
  5
1E
102
{ACAD_REACTORS
330
1A
102
}
330
1A
100
AcDbPlotSettings
  1

  2
none_device
  4

  6

 40
0.0
 41
0.0
 42
0.0
 43
0.0
 44
0.0
 45
0.0
 46
0.0
 47
0.0
 48
0.0
 49
0.0
140
0.0
141
0.0
142
1.0
143
1.0
 70
   688
 72
     1
 73
     0
 74
     5
  7

 75
    16
147
1.0
148
0.0
149
0.0
100
AcDbLayout
  1
Layout1
 70
     1
 71
     1
 10
0.0
 20
0.0
 11
420.0
 21
297.0
 12
0.0
 22
0.0
 32
0.0
 14
1.0000000000E+20
 24
1.0000000000E+20
 34
1.0000000000E+20
 15
-1.0000000000E+20
 25
-1.0000000000E+20
 35
-1.0000000000E+20
146
0.0
 13
0.0
 23
0.0
 33
0.0
 16
1.0
 26
0.0
 36
0.0
 17
0.0
 27
1.0
 37
0.0
 76
     0
330
1B
  0
LAYOUT
  5
26
102
{ACAD_REACTORS
330
1A
102
}
330
1A
100
AcDbPlotSettings
  1

  2
none_device
  4

  6

 40
0.0
 41
0.0
 42
0.0
 43
0.0
 44
0.0
 45
0.0
 46
0.0
 47
0.0
 48
0.0
 49
0.0
140
0.0
141
0.0
142
1.0
143
1.0
 70
   688
 72
     1
 73
     0
 74
     5
  7

 75
    16
147
1.0
148
0.0
149
0.0
100
AcDbLayout
  1
Layout2
 70
     1
 71
     2
 10
0.0
 20
0.0
 11
0.0
 21
0.0
 12
0.0
 22
0.0
 32
0.0
 14
0.0
 24
0.0
 34
0.0
 15
0.0
 25
0.0
 35
0.0
146
0.0
 13
0.0
 23
0.0
 33
0.0
 16
1.0
 26
0.0
 36
0.0
 17
0.0
 27
1.0
 37
0.0
 76
     0
330
23
  0
LAYOUT
  5
22
102
{ACAD_REACTORS
330
1A
102
}
330
1A
100
AcDbPlotSettings
  1

  2
none_device
  4
Letter_(8.50_x_11.00_Inches)
  6

 40
6.35
 41
6.35
 42
6.35000508
 43
6.35000508
 44
215.9
 45
279.4
 46
0.0
 47
0.0
 48
0.0
 49
0.0
140
0.0
141
0.0
142
1.0
143
1.0
 70
  1712
 72
     1
 73
     0
 74
     0
  7

 75
     0
147
1.0
148
0.0
149
0.0
100
AcDbLayout
  1
Model
 70
     1
 71
     0
 10
0.0
 20
0.0
 11
279.4
 21
215.9
 12
0.0
 22
0.0
 32
0.0
 14
0.0
 24
0.0
 34
0.0
 15
279.4
 25
215.9
 35
0.0
146
0.0
 13
0.0
 23
0.0
 33
0.0
 16
1.0
 26
0.0
 36
0.0
 17
0.0
 27
1.0
 37
0.0
 76
     0
330
1F
331
29
  0
MLINESTYLE
  5
18
102
{ACAD_REACTORS
330
17
102
}
330
17
100
AcDbMlineStyle
  2
Standard
 70
     0
  3

 62
   256
 51
90.0
 52
90.0
 71
     2
 49
0.5
 62
   256
  6
BYLAYER
 49
-0.5
 62
   256
  6
BYLAYER
  0
ACDBPLACEHOLDER
  5
F
102
{ACAD_REACTORS
330
E
102
}
330
E
  0
SCALE
  5
48
102
{ACAD_REACTORS
330
47
102
}
330
47
100
AcDbScale
 70
     0
300
1:1
140
1.0
141
1.0
290
     1
  0
SCALE
  5
49
102
{ACAD_REACTORS
330
47
102
}
330
47
100
AcDbScale
 70
     0
300
1:2
140
1.0
141
2.0
290
     0
  0
SCALE
  5
4A
102
{ACAD_REACTORS
330
47
102
}
330
47
100
AcDbScale
 70
     0
300
1:4
140
1.0
141
4.0
290
     0
  0
SCALE
  5
4B
102
{ACAD_REACTORS
330
47
102
}
330
47
100
AcDbScale
 70
     0
300
1:5
140
1.0
141
5.0
290
     0
  0
SCALE
  5
4C
102
{ACAD_REACTORS
330
47
102
}
330
47
100
AcDbScale
 70
     0
300
1:8
140
1.0
141
8.0
290
     0
  0
SCALE
  5
4D
102
{ACAD_REACTORS
330
47
102
}
330
47
100
AcDbScale
 70
     0
300
1:10
140
1.0
141
10.0
290
     0
  0
SCALE
  5
4E
102
{ACAD_REACTORS
330
47
102
}
330
47
100
AcDbScale
 70
     0
300
1:16
140
1.0
141
16.0
290
     0
  0
SCALE
  5
4F
102
{ACAD_REACTORS
330
47
102
}
330
47
100
AcDbScale
 70
     0
300
1:20
140
1.0
141
20.0
290
     0
  0
SCALE
  5
50
102
{ACAD_REACTORS
330
47
102
}
330
47
100
AcDbScale
 70
     0
300
1:30
140
1.0
141
30.0
290
     0
  0
SCALE
  5
51
102
{ACAD_REACTORS
330
47
102
}
330
47
100
AcDbScale
 70
     0
300
1:40
140
1.0
141
40.0
290
     0
  0
SCALE
  5
52
102
{ACAD_REACTORS
330
47
102
}
330
47
100
AcDbScale
 70
     0
300
1:50
140
1.0
141
50.0
290
     0
  0
SCALE
  5
53
102
{ACAD_REACTORS
330
47
102
}
330
47
100
AcDbScale
 70
     0
300
1:100
140
1.0
141
100.0
290
     0
  0
SCALE
  5
54
102
{ACAD_REACTORS
330
47
102
}
330
47
100
AcDbScale
 70
     0
300
2:1
140
2.0
141
1.0
290
     0
  0
SCALE
  5
55
102
{ACAD_REACTORS
330
47
102
}
330
47
100
AcDbScale
 70
     0
300
4:1
140
4.0
141
1.0
290
     0
  0
SCALE
  5
56
102
{ACAD_REACTORS
330
47
102
}
330
47
100
AcDbScale
 70
     0
300
8:1
140
8.0
141
1.0
290
     0
  0
SCALE
  5
57
102
{ACAD_REACTORS
330
47
102
}
330
47
100
AcDbScale
 70
     0
300
10:1
140
10.0
141
1.0
290
     0
  0
SCALE
  5
58
102
{ACAD_REACTORS
330
47
102
}
330
47
100
AcDbScale
 70
     0
300
100:1
140
100.0
141
1.0
290
     0
  0
SCALE
  5
59
102
{ACAD_REACTORS
330
47
102
}
330
47
100
AcDbScale
 70
     0
300
1/128" = 1'-0"
140
0.0078125
141
12.0
290
     0
  0
SCALE
  5
5A
102
{ACAD_REACTORS
330
47
102
}
330
47
100
AcDbScale
 70
     0
300
1/64" = 1'-0"
140
0.015625
141
12.0
290
     0
  0
SCALE
  5
5B
102
{ACAD_REACTORS
330
47
102
}
330
47
100
AcDbScale
 70
     0
300
1/32" = 1'-0"
140
0.03125
141
12.0
290
     0
  0
SCALE
  5
5C
102
{ACAD_REACTORS
330
47
102
}
330
47
100
AcDbScale
 70
     0
300
1/16" = 1'-0"
140
0.0625
141
12.0
290
     0
  0
SCALE
  5
5D
102
{ACAD_REACTORS
330
47
102
}
330
47
100
AcDbScale
 70
     0
300
3/32" = 1'-0"
140
0.09375
141
12.0
290
     0
  0
SCALE
  5
5E
102
{ACAD_REACTORS
330
47
102
}
330
47
100
AcDbScale
 70
     0
300
1/8" = 1'-0"
140
0.125
141
12.0
290
     0
  0
SCALE
  5
5F
102
{ACAD_REACTORS
330
47
102
}
330
47
100
AcDbScale
 70
     0
300
3/16" = 1'-0"
140
0.1875
141
12.0
290
     0
  0
SCALE
  5
60
102
{ACAD_REACTORS
330
47
102
}
330
47
100
AcDbScale
 70
     0
300
1/4" = 1'-0"
140
0.25
141
12.0
290
     0
  0
SCALE
  5
61
102
{ACAD_REACTORS
330
47
102
}
330
47
100
AcDbScale
 70
     0
300
3/8" = 1'-0"
140
0.375
141
12.0
290
     0
  0
SCALE
  5
62
102
{ACAD_REACTORS
330
47
102
}
330
47
100
AcDbScale
 70
     0
300
1/2" = 1'-0"
140
0.5
141
12.0
290
     0
  0
SCALE
  5
63
102
{ACAD_REACTORS
330
47
102
}
330
47
100
AcDbScale
 70
     0
300
3/4" = 1'-0"
140
0.75
141
12.0
290
     0
  0
SCALE
  5
64
102
{ACAD_REACTORS
330
47
102
}
330
47
100
AcDbScale
 70
     0
300
1" = 1'-0"
140
1.0
141
12.0
290
     0
  0
SCALE
  5
65
102
{ACAD_REACTORS
330
47
102
}
330
47
100
AcDbScale
 70
     0
300
1-1/2" = 1'-0"
140
1.5
141
12.0
290
     0
  0
SCALE
  5
66
102
{ACAD_REACTORS
330
47
102
}
330
47
100
AcDbScale
 70
     0
300
3" = 1'-0"
140
3.0
141
12.0
290
     0
  0
SCALE
  5
67
102
{ACAD_REACTORS
330
47
102
}
330
47
100
AcDbScale
 70
     0
300
6" = 1'-0"
140
6.0
141
12.0
290
     0
  0
SCALE
  5
68
102
{ACAD_REACTORS
330
47
102
}
330
47
100
AcDbScale
 70
     0
300
1'-0" = 1'-0"
140
12.0
141
12.0
290
     0
  0
ENDSEC
  0
EOF
